  0
SECTION
  2
HEADER
  9
$ACADVER
  1
AC1015
  9
$ACADMAINTVER
 70
     6
  9
$DWGCODEPAGE
  3
ANSI_1254
  9
$INSBASE
 10
0.0
 20
0.0
 30
0.0
  9
$EXTMIN
 10
0.0
 20
0.0
 30
0.0
  9
$EXTMAX
 10
279.4
 20
215.9
 30
0.0
  9
$LIMMIN
 10
0.0
 20
0.0
  9
$LIMMAX
 10
279.4
 20
215.9
  9
$ORTHOMODE
 70
     0
  9
$REGENMODE
 70
     1
  9
$FILLMODE
 70
     1
  9
$QTEXTMODE
 70
     0
  9
$MIRRTEXT
 70
     1
  9
$LTSCALE
 40
1.0
  9
$ATTMODE
 70
     1
  9
$TEXTSIZE
 40
3.5
  9
$TRACEWID
 40
1.0
  9
$TEXTSTYLE
  7
Standard
  9
$CLAYER
  8
0
  9
$CELTYPE
  6
ByLayer
  9
$CECOLOR
 62
   256
  9
$CELTSCALE
 40
1.0
  9
$DISPSILH
 70
     0
  9
$DIMSCALE
 40
1.0
  9
$DIMASZ
 40
3.5
  9
$DIMEXO
 40
1.0
  9
$DIMDLI
 40
3.75
  9
$DIMRND
 40
0.0
  9
$DIMDLE
 40
0.0
  9
$DIMEXE
 40
1.0
  9
$DIMTP
 40
0.0
  9
$DIMTM
 40
0.0
  9
$DIMTXT
 40
3.5
  9
$DIMCEN
 40
2.5
  9
$DIMTSZ
 40
0.0
  9
$DIMTOL
 70
     0
  9
$DIMLIM
 70
     0
  9
$DIMTIH
 70
     1
  9
$DIMTOH
 70
     1
  9
$DIMSE1
 70
     0
  9
$DIMSE2
 70
     0
  9
$DIMTAD
 70
     1
  9
$DIMZIN
 70
     0
  9
$DIMBLK
  1

  9
$DIMASO
 70
     1
  9
$DIMSHO
 70
     1
  9
$DIMPOST
  1

  9
$DIMAPOST
  1

  9
$DIMALT
 70
     0
  9
$DIMALTD
 70
     3
  9
$DIMALTF
 40
0.0393700787
  9
$DIMLFAC
 40
1.0
  9
$DIMTOFL
 70
     1
  9
$DIMTVP
 40
0.0
  9
$DIMTIX
 70
     0
  9
$DIMSOXD
 70
     0
  9
$DIMSAH
 70
     0
  9
$DIMBLK1
  1

  9
$DIMBLK2
  1

  9
$DIMSTYLE
  2
ISO-25
  9
$DIMCLRD
 70
     0
  9
$DIMCLRE
 70
     0
  9
$DIMCLRT
 70
     0
  9
$DIMTFAC
 40
1.0
  9
$DIMGAP
 40
1.524
  9
$DIMJUST
 70
     0
  9
$DIMSD1
 70
     0
  9
$DIMSD2
 70
     0
  9
$DIMTOLJ
 70
     0
  9
$DIMTZIN
 70
     0
  9
$DIMALTZ
 70
     0
  9
$DIMALTTZ
 70
     0
  9
$DIMUPT
 70
     0
  9
$DIMDEC
 70
     2
  9
$DIMTDEC
 70
     2
  9
$DIMALTU
 70
     2
  9
$DIMALTTD
 70
     3
  9
$DIMTXSTY
  7
Standard
  9
$DIMAUNIT
 70
     0
  9
$DIMADEC
 70
     2
  9
$DIMALTRND
 40
0.0
  9
$DIMAZIN
 70
     0
  9
$DIMDSEP
 70
    44
  9
$DIMATFIT
 70
     3
  9
$DIMFRAC
 70
     0
  9
$DIMLDRBLK
  1

  9
$DIMLUNIT
 70
     2
  9
$DIMLWD
 70
    -2
  9
$DIMLWE
 70
    -2
  9
$DIMTMOVE
 70
     0
  9
$LUNITS
 70
     2
  9
$LUPREC
 70
     2
  9
$SKETCHINC
 40
1.0
  9
$FILLETRAD
 40
10.0
  9
$AUNITS
 70
     0
  9
$AUPREC
 70
     2
  9
$MENU
  1
.
  9
$ELEVATION
 40
0.0
  9
$PELEVATION
 40
0.0
  9
$THICKNESS
 40
0.0
  9
$LIMCHECK
 70
     0
  9
$CHAMFERA
 40
0.0
  9
$CHAMFERB
 40
0.0
  9
$CHAMFERC
 40
0.0
  9
$CHAMFERD
 40
0.0
  9
$SKPOLY
 70
     0
  9
$TDCREATE
 40
2459935.69938956
  9
$TDUCREATE
 40
2459935.57438956
  9
$TDUPDATE
 40
2459935.699389734
  9
$TDUUPDATE
 40
2459935.574389734
  9
$TDINDWG
 40
0.0000000116
  9
$TDUSRTIMER
 40
0.0000000116
  9
$USRTIMER
 70
     1
  9
$ANGBASE
 50
0.0
  9
$ANGDIR
 70
     0
  9
$PDMODE
 70
     0
  9
$PDSIZE
 40
-1.0
  9
$PLINEWID
 40
0.0
  9
$SPLFRAME
 70
     0
  9
$SPLINETYPE
 70
     6
  9
$SPLINESEGS
 70
     8
  9
$HANDSEED
  5
ED
  9
$SURFTAB1
 70
     6
  9
$SURFTAB2
 70
     6
  9
$SURFTYPE
 70
     6
  9
$SURFU
 70
     6
  9
$SURFV
 70
     6
  9
$UCSBASE
  2

  9
$UCSNAME
  2

  9
$UCSORG
 10
0.0
 20
0.0
 30
0.0
  9
$UCSXDIR
 10
1.0
 20
0.0
 30
0.0
  9
$UCSYDIR
 10
0.0
 20
1.0
 30
0.0
  9
$UCSORTHOREF
  2

  9
$UCSORTHOVIEW
 70
     0
  9
$UCSORGTOP
 10
0.0
 20
0.0
 30
0.0
  9
$UCSORGBOTTOM
 10
0.0
 20
0.0
 30
0.0
  9
$UCSORGLEFT
 10
0.0
 20
0.0
 30
0.0
  9
$UCSORGRIGHT
 10
0.0
 20
0.0
 30
0.0
  9
$UCSORGFRONT
 10
0.0
 20
0.0
 30
0.0
  9
$UCSORGBACK
 10
0.0
 20
0.0
 30
0.0
  9
$PUCSBASE
  2

  9
$PUCSNAME
  2

  9
$PUCSORG
 10
0.0
 20
0.0
 30
0.0
  9
$PUCSXDIR
 10
1.0
 20
0.0
 30
0.0
  9
$PUCSYDIR
 10
0.0
 20
1.0
 30
0.0
  9
$PUCSORTHOREF
  2

  9
$PUCSORTHOVIEW
 70
     0
  9
$PUCSORGTOP
 10
0.0
 20
0.0
 30
0.0
  9
$PUCSORGBOTTOM
 10
0.0
 20
0.0
 30
0.0
  9
$PUCSORGLEFT
 10
0.0
 20
0.0
 30
0.0
  9
$PUCSORGRIGHT
 10
0.0
 20
0.0
 30
0.0
  9
$PUCSORGFRONT
 10
0.0
 20
0.0
 30
0.0
  9
$PUCSORGBACK
 10
0.0
 20
0.0
 30
0.0
  9
$USERI1
 70
     0
  9
$USERI2
 70
     0
  9
$USERI3
 70
     0
  9
$USERI4
 70
     0
  9
$USERI5
 70
     0
  9
$USERR1
 40
0.0
  9
$USERR2
 40
0.0
  9
$USERR3
 40
0.0
  9
$USERR4
 40
0.0
  9
$USERR5
 40
0.0
  9
$WORLDVIEW
 70
     1
  9
$SHADEDGE
 70
     3
  9
$SHADEDIF
 70
    70
  9
$TILEMODE
 70
     1
  9
$MAXACTVP
 70
    64
  9
$PINSBASE
 10
0.0
 20
0.0
 30
0.0
  9
$PLIMCHECK
 70
     0
  9
$PEXTMIN
 10
1.0000000000E+20
 20
1.0000000000E+20
 30
1.0000000000E+20
  9
$PEXTMAX
 10
-1.0000000000E+20
 20
-1.0000000000E+20
 30
-1.0000000000E+20
  9
$PLIMMIN
 10
0.0
 20
0.0
  9
$PLIMMAX
 10
420.0
 20
297.0
  9
$UNITMODE
 70
     0
  9
$VISRETAIN
 70
     1
  9
$PLINEGEN
 70
     0
  9
$PSLTSCALE
 70
     1
  9
$TREEDEPTH
 70
  3020
  9
$CMLSTYLE
  2
Standard
  9
$CMLJUST
 70
     0
  9
$CMLSCALE
 40
20.0
  9
$PROXYGRAPHICS
 70
     1
  9
$MEASUREMENT
 70
     1
  9
$CELWEIGHT
370
    -1
  9
$ENDCAPS
280
     0
  9
$JOINSTYLE
280
     0
  9
$LWDISPLAY
290
     1
  9
$INSUNITS
 70
     4
  9
$HYPERLINKBASE
  1

  9
$STYLESHEET
  1

  9
$XEDIT
290
     1
  9
$CEPSNTYPE
380
     0
  9
$PSTYLEMODE
290
     1
  9
$FINGERPRINTGUID
  2
{f730d15e-5c26-4c9d-9f0b-1d63689cb4e8}
  9
$VERSIONGUID
  2
{FAEB1C32-E019-11D5-929B-00C0DF256EC4}
  9
$EXTNAMES
290
     1
  9
$PSVPSCALE
 40
0.0
  9
$OLESTARTUP
290
     0
  0
ENDSEC
  0
SECTION
  2
CLASSES
  0
CLASS
  1
ACDBDICTIONARYWDFLT
  2
AcDbDictionaryWithDefault
  3
ObjectDBX Classes
 90
        0
280
     0
281
     0
  0
CLASS
  1
VISUALSTYLE
  2
AcDbVisualStyle
  3
ObjectDBX Classes
 90
     4095
280
     0
281
     0
  0
CLASS
  1
MATERIAL
  2
AcDbMaterial
  3
ObjectDBX Classes
 90
     1153
280
     0
281
     0
  0
CLASS
  1
SCALE
  2
AcDbScale
  3
ObjectDBX Classes
 90
     1153
280
     0
281
     0
  0
CLASS
  1
TABLESTYLE
  2
AcDbTableStyle
  3
ObjectDBX Classes
 90
     4095
280
     0
281
     0
  0
CLASS
  1
MLEADERSTYLE
  2
AcDbMLeaderStyle
  3
ACDB_MLEADERSTYLE_CLASS
 90
     4095
280
     0
281
     0
  0
CLASS
  1
SUN
  2
AcDbSun
  3
SCENEOE
 90
     1153
280
     0
281
     0
  0
CLASS
  1
ACDBPLACEHOLDER
  2
AcDbPlaceHolder
  3
ObjectDBX Classes
 90
        0
280
     0
281
     0
  0
CLASS
  1
LAYOUT
  2
AcDbLayout
  3
ObjectDBX Classes
 90
        0
280
     0
281
     0
  0
ENDSEC
  0
SECTION
  2
TABLES
  0
TABLE
  2
VPORT
  5
8
330
0
100
AcDbSymbolTable
 70
     1
  0
VPORT
  5
29
330
8
100
AcDbSymbolTableRecord
100
AcDbViewportTableRecord
  2
*Active
 70
     0
 10
0.0
 20
0.0
 11
1.0
 21
1.0
 12
139.7
 22
107.95
 13
0.0
 23
0.0
 14
10.0
 24
10.0
 15
10.0
 25
10.0
 16
0.0
 26
0.0
 36
1.0
 17
0.0
 27
0.0
 37
0.0
 40
215.9
 41
1.2941176471
 42
50.0
 43
0.0
 44
0.0
 50
0.0
 51
0.0
 71
     0
 72
  2000
 73
     1
 74
     3
 75
     0
 76
     0
 77
     0
 78
     0
281
     0
 65
     1
110
0.0
120
0.0
130
0.0
111
1.0
121
0.0
131
0.0
112
0.0
122
1.0
132
0.0
 79
     0
146
0.0
  0
ENDTAB
  0
TABLE
  2
LTYPE
  5
5
330
0
100
AcDbSymbolTable
 70
     6
  0
LTYPE
  5
14
330
5
100
AcDbSymbolTableRecord
100
AcDbLinetypeTableRecord
  2
ByBlock
 70
     0
  3

 72
    65
 73
     0
 40
0.0
  0
LTYPE
  5
15
330
5
100
AcDbSymbolTableRecord
100
AcDbLinetypeTableRecord
  2
ByLayer
 70
     0
  3

 72
    65
 73
     0
 40
0.0
  0
LTYPE
  5
16
330
5
100
AcDbSymbolTableRecord
100
AcDbLinetypeTableRecord
  2
Continuous
 70
     0
  3
Solid line
 72
    65
 73
     0
 40
0.0
  0
LTYPE
  5
6E
330
5
100
AcDbSymbolTableRecord
100
AcDbLinetypeTableRecord
  2
HIDDEN
 70
     0
  3
Hidden __ __ __ __ __ __ __ __ __ __ __ __ __ __
 72
    65
 73
     2
 40
1.905
 49
1.27
 74
     0
 49
-0.635
 74
     0
  0
LTYPE
  5
6F
330
5
100
AcDbSymbolTableRecord
100
AcDbLinetypeTableRecord
  2
PHANTOM
 70
     0
  3
Phantom ______  __  __  ______  __  __  ______
 72
    65
 73
     6
 40
12.7
 49
6.35
 74
     0
 49
-1.27
 74
     0
 49
1.27
 74
     0
 49
-1.27
 74
     0
 49
1.27
 74
     0
 49
-1.27
 74
     0
  0
LTYPE
  5
70
330
5
100
AcDbSymbolTableRecord
100
AcDbLinetypeTableRecord
  2
CENTER
 70
     0
  3
Center ____ _ ____ _ ____ _ ____ _ ____ _ ____
 72
    65
 73
     4
 40
10.16
 49
6.35
 74
     0
 49
-1.27
 74
     0
 49
1.27
 74
     0
 49
-1.27
 74
     0
  0
LTYPE
  5
71
330
5
100
AcDbSymbolTableRecord
100
AcDbLinetypeTableRecord
  2
CENTERX2
 70
     0
  3
Center (2x) ________  __  ________  __  _____
 72
    65
 73
     4
 40
20.32
 49
12.7
 74
     0
 49
-2.54
 74
     0
 49
2.54
 74
     0
 49
-2.54
 74
     0
  0
LTYPE
  5
72
330
5
100
AcDbSymbolTableRecord
100
AcDbLinetypeTableRecord
  2
DOT2
 70
     0
  3
Dot (.5x) ........................................
 72
    65
 73
     2
 40
0.635
 49
0.0
 74
     0
 49
-0.635
 74
     0
  0
ENDTAB
  0
TABLE
  2
LAYER
  5
2
330
0
100
AcDbSymbolTable
 70
    17
  0
LAYER
  5
10
330
2
100
AcDbSymbolTableRecord
100
AcDbLayerTableRecord
  2
0
 70
     0
 62
     7
  6
Continuous
370
    -3
390
F
  0
LAYER
  5
73
330
2
100
AcDbSymbolTableRecord
100
AcDbLayerTableRecord
  2
FORMAT
 70
     0
 62
     7
  6
Continuous
370
    -3
390
F
  0
LAYER
  5
74
330
2
100
AcDbSymbolTableRecord
100
AcDbLayerTableRecord
  2
YARDIMCI_GEOMETRI
 70
     0
 62
    -6
  6
Continuous
290
     0
370
    -3
390
F
  0
LAYER
  5
75
330
2
100
AcDbSymbolTableRecord
100
AcDbLayerTableRecord
  2
SAYFA_CERCEVESI
 70
     0
 62
     7
  6
Continuous
370
    25
390
F
  0
LAYER
  5
76
330
2
100
AcDbSymbolTableRecord
100
AcDbLayerTableRecord
  2
ANTET
 70
     0
 62
     7
  6
Continuous
370
    -3
390
F
  0
LAYER
  5
77
330
2
100
AcDbSymbolTableRecord
100
AcDbLayerTableRecord
  2
OLCU
 70
     0
 62
   150
  6
Continuous
370
    -3
390
F
  0
LAYER
  5
78
330
2
100
AcDbSymbolTableRecord
100
AcDbLayerTableRecord
  2
METIN
 70
     0
 62
    96
  6
Continuous
370
    -3
390
F
  0
LAYER
  5
79
330
2
100
AcDbSymbolTableRecord
100
AcDbLayerTableRecord
  2
BALON
 70
     0
 62
     5
  6
Continuous
370
    -3
390
F
  0
LAYER
  5
7A
330
2
100
AcDbSymbolTableRecord
100
AcDbLayerTableRecord
  2
VURGU
 70
     0
 62
     7
  6
Continuous
370
    -3
390
F
  0
LAYER
  5
7B
330
2
100
AcDbSymbolTableRecord
100
AcDbLayerTableRecord
  2
SILIK
 70
     0
 62
     7
  6
Continuous
370
    -3
390
F
  0
LAYER
  5
7C
330
2
100
AcDbSymbolTableRecord
100
AcDbLayerTableRecord
  2
MODEL
 70
     0
 62
     7
  6
Continuous
370
    -3
390
F
  0
LAYER
  5
7D
330
2
100
AcDbSymbolTableRecord
100
AcDbLayerTableRecord
  2
DETAYLANDıRMA
 70
     0
 62
   190
  6
Continuous
370
    -3
390
F
  0
LAYER
  5
7E
330
2
100
AcDbSymbolTableRecord
100
AcDbLayerTableRecord
  2
TOLERANS
 70
     0
 62
   230
  6
Continuous
370
    -3
390
F
  0
LAYER
  5
7F
330
2
100
AcDbSymbolTableRecord
100
AcDbLayerTableRecord
  2
MERKEZ_CIZGILERI
 70
     0
 62
    30
  6
Continuous
370
    -3
390
F
  0
LAYER
  5
80
330
2
100
AcDbSymbolTableRecord
100
AcDbLayerTableRecord
  2
KESIT-DETAY_CIZGILERI
 70
     0
 62
     7
  6
Continuous
370
    -3
390
F
  0
LAYER
  5
81
330
2
100
AcDbSymbolTableRecord
100
AcDbLayerTableRecord
  2
\U+041E\U+0421\U+0415\U+0412\U+042B\U+0415
 70
     0
 62
     7
  6
Continuous
370
    -3
390
F
  0
LAYER
  5
82
330
2
100
AcDbSymbolTableRecord
100
AcDbLayerTableRecord
  2
\U+0412\U+041E\U+0414\U+042F\U+041D\U+042B\U+0415_\U+0417\U+041D\U+0410\U+041A\U+0418
 70
     0
 62
    11
  6
Continuous
370
    -3
390
F
  0
ENDTAB
  0
TABLE
  2
STYLE
  5
3
330
0
100
AcDbSymbolTable
 70
     1
  0
STYLE
  5
11
330
3
100
AcDbSymbolTableRecord
100
AcDbTextStyleTableRecord
  2
Standard
 70
     0
 40
0.0
 41
1.0
 50
0.0
 71
     0
 42
3.5
  3
txt
  4

  0
ENDTAB
  0
TABLE
  2
VIEW
  5
6
330
0
100
AcDbSymbolTable
 70
     0
  0
ENDTAB
  0
TABLE
  2
UCS
  5
7
330
0
100
AcDbSymbolTable
 70
     0
  0
ENDTAB
  0
TABLE
  2
APPID
  5
9
330
0
100
AcDbSymbolTable
 70
     1
  0
APPID
  5
12
330
9
100
AcDbSymbolTableRecord
100
AcDbRegAppTableRecord
  2
ACAD
 70
     0
  0
ENDTAB
  0
TABLE
  2
DIMSTYLE
  5
A
330
0
100
AcDbSymbolTable
 70
     1
100
AcDbDimStyleTable
  0
DIMSTYLE
105
27
330
A
100
AcDbSymbolTableRecord
100
AcDbDimStyleTableRecord
  2
ISO-25
 70
     0
 41
2.5
 42
0.625
 43
3.75
 44
1.25
 73
     0
 74
     0
 77
     1
 78
     8
140
2.5
141
2.5
143
0.0393700787
147
0.625
171
     3
172
     1
178
     0
271
     2
272
     2
274
     3
278
    44
283
     0
284
     8
340
11
  0
ENDTAB
  0
TABLE
  2
BLOCK_RECORD
  5
1
330
0
100
AcDbSymbolTable
 70
     5
  0
BLOCK_RECORD
  5
1F
330
1
100
AcDbSymbolTableRecord
100
AcDbBlockTableRecord
  2
*Model_Space
340
22
  0
BLOCK_RECORD
  5
1B
330
1
100
AcDbSymbolTableRecord
100
AcDbBlockTableRecord
  2
*Paper_Space
340
1E
  0
BLOCK_RECORD
  5
23
330
1
100
AcDbSymbolTableRecord
100
AcDbBlockTableRecord
  2
*Paper_Space0
340
26
  0
BLOCK_RECORD
  5
97
330
1
100
AcDbSymbolTableRecord
100
AcDbBlockTableRecord
  2
SW_CENTERMARKSYMBOL_0
340
0
102
{BLKREFS
331
A2
102
}
  0
BLOCK_RECORD
  5
AC
330
1
100
AcDbSymbolTableRecord
100
AcDbBlockTableRecord
  2
SW_CENTERMARKSYMBOL_1
340
0
102
{BLKREFS
331
B7
102
}
  0
BLOCK_RECORD
  5
BF
330
1
100
AcDbSymbolTableRecord
100
AcDbBlockTableRecord
  2
SW_CENTERMARKSYMBOL_2
340
0
102
{BLKREFS
331
CA
102
}
  0
BLOCK_RECORD
  5
D2
330
1
100
AcDbSymbolTableRecord
100
AcDbBlockTableRecord
  2
SW_CENTERMARKSYMBOL_3
340
0
102
{BLKREFS
331
DD
102
}
  0
ENDTAB
  0
ENDSEC
  0
SECTION
  2
BLOCKS
  0
BLOCK
  5
20
330
1F
100
AcDbEntity
  8
0
100
AcDbBlockBegin
  2
*Model_Space
 70
     0
 10
0.0
 20
0.0
 30
0.0
  3
*Model_Space
  1

  0
ENDBLK
  5
21
330
1F
100
AcDbEntity
  8
0
100
AcDbBlockEnd
  0
BLOCK
  5
1C
330
1B
100
AcDbEntity
 67
     1
  8
0
100
AcDbBlockBegin
  2
*Paper_Space
 70
     0
 10
0.0
 20
0.0
 30
0.0
  3
*Paper_Space
  1

  0
ENDBLK
  5
1D
330
1B
100
AcDbEntity
 67
     1
  8
0
100
AcDbBlockEnd
  0
BLOCK
  5
24
330
23
100
AcDbEntity
  8
0
100
AcDbBlockBegin
  2
*Paper_Space0
 70
     0
 10
0.0
 20
0.0
 30
0.0
  3
*Paper_Space0
  1

  0
ENDBLK
  5
25
330
23
100
AcDbEntity
  8
0
100
AcDbBlockEnd
  0
BLOCK
  5
98
330
97
100
AcDbEntity
  8
0
100
AcDbBlockBegin
  2
SW_CENTERMARKSYMBOL_0
 70
     0
 10
0.0
 20
0.0
 30
0.0
  3
SW_CENTERMARKSYMBOL_0
  1

  0
LINE
  5
9A
330
97
100
AcDbEntity
  8
FORMAT
 62
     0
100
AcDbLine
 10
0.0
 20
0.0
 30
0.0
 11
0.0
 21
2.5
 31
0.0
  0
LINE
  5
9B
330
97
100
AcDbEntity
  8
FORMAT
 62
     0
100
AcDbLine
 10
0.0
 20
0.0
 30
0.0
 11
-2.5
 21
0.0
 31
0.0
  0
LINE
  5
9C
330
97
100
AcDbEntity
  8
FORMAT
 62
     0
100
AcDbLine
 10
0.0
 20
0.0
 30
0.0
 11
0.0
 21
-2.5
 31
0.0
  0
LINE
  5
9D
330
97
100
AcDbEntity
  8
FORMAT
 62
     0
100
AcDbLine
 10
0.0
 20
0.0
 30
0.0
 11
2.5
 21
0.0
 31
0.0
  0
LINE
  5
9E
330
97
100
AcDbEntity
  8
FORMAT
 62
     0
100
AcDbLine
 10
0.0
 20
5.0
 30
0.0
 11
0.0
 21
92.5
 31
0.0
  0
LINE
  5
9F
330
97
100
AcDbEntity
  8
FORMAT
 62
     0
100
AcDbLine
 10
-5.0
 20
0.0
 30
0.0
 11
-92.5
 21
0.0
 31
0.0
  0
LINE
  5
A0
330
97
100
AcDbEntity
  8
FORMAT
 62
     0
100
AcDbLine
 10
0.0
 20
-5.0
 30
0.0
 11
0.0
 21
-92.5
 31
0.0
  0
LINE
  5
A1
330
97
100
AcDbEntity
  8
FORMAT
 62
     0
100
AcDbLine
 10
5.0
 20
0.0
 30
0.0
 11
92.5
 21
0.0
 31
0.0
  0
ENDBLK
  5
99
330
97
100
AcDbEntity
  8
0
100
AcDbBlockEnd
  0
BLOCK
  5
AD
330
AC
100
AcDbEntity
  8
0
100
AcDbBlockBegin
  2
SW_CENTERMARKSYMBOL_1
 70
     0
 10
0.0
 20
0.0
 30
0.0
  3
SW_CENTERMARKSYMBOL_1
  1

  0
LINE
  5
AF
330
AC
100
AcDbEntity
  8
FORMAT
 62
     0
100
AcDbLine
 10
0.0
 20
0.0
 30
0.0
 11
0.0
 21
2.5
 31
0.0
  0
LINE
  5
B0
330
AC
100
AcDbEntity
  8
FORMAT
 62
     0
100
AcDbLine
 10
0.0
 20
0.0
 30
0.0
 11
-2.5
 21
0.0
 31
0.0
  0
LINE
  5
B1
330
AC
100
AcDbEntity
  8
FORMAT
 62
     0
100
AcDbLine
 10
0.0
 20
0.0
 30
0.0
 11
0.0
 21
-2.5
 31
0.0
  0
LINE
  5
B2
330
AC
100
AcDbEntity
  8
FORMAT
 62
     0
100
AcDbLine
 10
0.0
 20
0.0
 30
0.0
 11
2.5
 21
0.0
 31
0.0
  0
LINE
  5
B3
330
AC
100
AcDbEntity
  8
FORMAT
 62
     0
100
AcDbLine
 10
0.0
 20
5.0
 30
0.0
 11
0.0
 21
92.5
 31
0.0
  0
LINE
  5
B4
330
AC
100
AcDbEntity
  8
FORMAT
 62
     0
100
AcDbLine
 10
-5.0
 20
0.0
 30
0.0
 11
-92.5
 21
0.0
 31
0.0
  0
LINE
  5
B5
330
AC
100
AcDbEntity
  8
FORMAT
 62
     0
100
AcDbLine
 10
0.0
 20
-5.0
 30
0.0
 11
0.0
 21
-92.5
 31
0.0
  0
LINE
  5
B6
330
AC
100
AcDbEntity
  8
FORMAT
 62
     0
100
AcDbLine
 10
5.0
 20
0.0
 30
0.0
 11
92.5
 21
0.0
 31
0.0
  0
ENDBLK
  5
AE
330
AC
100
AcDbEntity
  8
0
100
AcDbBlockEnd
  0
BLOCK
  5
C0
330
BF
100
AcDbEntity
  8
0
100
AcDbBlockBegin
  2
SW_CENTERMARKSYMBOL_2
 70
     0
 10
0.0
 20
0.0
 30
0.0
  3
SW_CENTERMARKSYMBOL_2
  1

  0
LINE
  5
C2
330
BF
100
AcDbEntity
  8
FORMAT
 62
     0
100
AcDbLine
 10
0.0
 20
0.0
 30
0.0
 11
0.0
 21
2.5
 31
0.0
  0
LINE
  5
C3
330
BF
100
AcDbEntity
  8
FORMAT
 62
     0
100
AcDbLine
 10
0.0
 20
0.0
 30
0.0
 11
-2.5
 21
0.0
 31
0.0
  0
LINE
  5
C4
330
BF
100
AcDbEntity
  8
FORMAT
 62
     0
100
AcDbLine
 10
0.0
 20
0.0
 30
0.0
 11
0.0
 21
-2.5
 31
0.0
  0
LINE
  5
C5
330
BF
100
AcDbEntity
  8
FORMAT
 62
     0
100
AcDbLine
 10
0.0
 20
0.0
 30
0.0
 11
2.5
 21
0.0
 31
0.0
  0
LINE
  5
C6
330
BF
100
AcDbEntity
  8
FORMAT
 62
     0
100
AcDbLine
 10
0.0
 20
5.0
 30
0.0
 11
0.0
 21
92.5
 31
0.0
  0
LINE
  5
C7
330
BF
100
AcDbEntity
  8
FORMAT
 62
     0
100
AcDbLine
 10
-5.0
 20
0.0
 30
0.0
 11
-92.5
 21
0.0
 31
0.0
  0
LINE
  5
C8
330
BF
100
AcDbEntity
  8
FORMAT
 62
     0
100
AcDbLine
 10
0.0
 20
-5.0
 30
0.0
 11
0.0
 21
-92.5
 31
0.0
  0
LINE
  5
C9
330
BF
100
AcDbEntity
  8
FORMAT
 62
     0
100
AcDbLine
 10
5.0
 20
0.0
 30
0.0
 11
92.5
 21
0.0
 31
0.0
  0
ENDBLK
  5
C1
330
BF
100
AcDbEntity
  8
0
100
AcDbBlockEnd
  0
BLOCK
  5
D3
330
D2
100
AcDbEntity
  8
0
100
AcDbBlockBegin
  2
SW_CENTERMARKSYMBOL_3
 70
     0
 10
0.0
 20
0.0
 30
0.0
  3
SW_CENTERMARKSYMBOL_3
  1

  0
LINE
  5
D5
330
D2
100
AcDbEntity
  8
FORMAT
 62
     0
100
AcDbLine
 10
0.0
 20
0.0
 30
0.0
 11
0.0
 21
2.5
 31
0.0
  0
LINE
  5
D6
330
D2
100
AcDbEntity
  8
FORMAT
 62
     0
100
AcDbLine
 10
0.0
 20
0.0
 30
0.0
 11
-2.5
 21
0.0
 31
0.0
  0
LINE
  5
D7
330
D2
100
AcDbEntity
  8
FORMAT
 62
     0
100
AcDbLine
 10
0.0
 20
0.0
 30
0.0
 11
0.0
 21
-2.5
 31
0.0
  0
LINE
  5
D8
330
D2
100
AcDbEntity
  8
FORMAT
 62
     0
100
AcDbLine
 10
0.0
 20
0.0
 30
0.0
 11
2.5
 21
0.0
 31
0.0
  0
LINE
  5
D9
330
D2
100
AcDbEntity
  8
FORMAT
 62
     0
100
AcDbLine
 10
0.0
 20
5.0
 30
0.0
 11
0.0
 21
92.5
 31
0.0
  0
LINE
  5
DA
330
D2
100
AcDbEntity
  8
FORMAT
 62
     0
100
AcDbLine
 10
-5.0
 20
0.0
 30
0.0
 11
-92.5
 21
0.0
 31
0.0
  0
LINE
  5
DB
330
D2
100
AcDbEntity
  8
FORMAT
 62
     0
100
AcDbLine
 10
0.0
 20
-5.0
 30
0.0
 11
0.0
 21
-92.5
 31
0.0
  0
LINE
  5
DC
330
D2
100
AcDbEntity
  8
FORMAT
 62
     0
100
AcDbLine
 10
5.0
 20
0.0
 30
0.0
 11
92.5
 21
0.0
 31
0.0
  0
ENDBLK
  5
D4
330
D2
100
AcDbEntity
  8
0
100
AcDbBlockEnd
  0
ENDSEC
  0
SECTION
  2
ENTITIES
  0
LINE
  5
83
330
1F
100
AcDbEntity
  8
0
  6
Continuous
 62
     7
370
    25
100
AcDbLine
 10
10.6662681135
 20
91.3947607392
 30
0.0
 11
10.6662681135
 21
-48.6052392608
 31
0.0
  0
LINE
  5
84
330
1F
100
AcDbEntity
  8
0
  6
Continuous
 62
     7
370
    25
100
AcDbLine
 10
190.6662681135
 20
-48.6052392608
 30
0.0
 11
190.6662681135
 21
91.3947607392
 31
0.0
  0
ARC
  5
85
330
1F
100
AcDbEntity
  8
0
  6
Continuous
 62
     7
370
    25
100
AcDbCircle
 10
190.6662681135
 20
91.3947607392
 30
0.0
 40
180.0
100
AcDbArc
 50
90.0
 51
180.0
  0
LINE
  5
86
330
1F
100
AcDbEntity
  8
0
  6
Continuous
 62
     7
370
    25
100
AcDbLine
 10
330.6662681135
 20
271.3947607392
 30
0.0
 11
190.6662681135
 21
271.3947607392
 31
0.0
  0
LINE
  5
87
330
1F
100
AcDbEntity
  8
0
  6
Continuous
 62
     7
370
    25
100
AcDbLine
 10
190.6662681135
 20
91.3947607392
 30
0.0
 11
330.6662681135
 21
91.3947607392
 31
0.0
  0
LINE
  5
88
330
1F
100
AcDbEntity
  8
0
  6
Continuous
 62
     7
370
    25
100
AcDbLine
 10
100.6662681135
 20
-48.6052392608
 30
0.0
 11
190.6662681135
 21
-48.6052392608
 31
0.0
  0
LINE
  5
89
330
1F
100
AcDbEntity
  8
0
  6
Continuous
 62
     7
370
    25
100
AcDbLine
 10
10.6662681135
 20
-48.6052392608
 30
0.0
 11
100.6662681135
 21
-48.6052392608
 31
0.0
  0
LINE
  5
8A
330
1F
100
AcDbEntity
  8
0
  6
Continuous
 62
     7
370
    25
100
AcDbLine
 10
330.6662681135
 20
181.3947607392
 30
0.0
 11
330.6662681135
 21
91.3947607392
 31
0.0
  0
LINE
  5
8B
330
1F
100
AcDbEntity
  8
0
  6
Continuous
 62
     7
370
    25
100
AcDbLine
 10
330.6662681135
 20
271.3947607392
 30
0.0
 11
330.6662681135
 21
181.3947607392
 31
0.0
  0
LINE
  5
8C
330
1F
100
AcDbEntity
  8
0
  6
Continuous
 62
     1
370
    25
100
AcDbLine
 10
10.6662681135
 20
91.3947607392
 30
0.0
 11
190.6662681135
 21
91.3947607392
 31
0.0
  0
LINE
  5
8D
330
1F
100
AcDbEntity
  8
0
  6
Continuous
 62
     1
370
    25
100
AcDbLine
 10
190.6662681135
 20
271.3947607392
 30
0.0
 11
190.6662681135
 21
91.3947607392
 31
0.0
  0
LINE
  5
8E
330
1F
100
AcDbEntity
  8
0
  6
Continuous
 62
     7
370
    25
100
AcDbLine
 10
-272.1068405183
 20
91.3947607392
 30
0.0
 11
-272.1068405183
 21
-48.6052392608
 31
0.0
  0
LINE
  5
8F
330
1F
100
AcDbEntity
  8
0
  6
Continuous
 62
     7
370
    25
100
AcDbLine
 10
-92.1068405183
 20
-48.6052392608
 30
0.0
 11
-92.1068405183
 21
91.3947607392
 31
0.0
  0
LINE
  5
90
330
1F
100
AcDbEntity
  8
0
  6
Continuous
 62
     7
370
    25
100
AcDbLine
 10
-272.1068405183
 20
181.3947607392
 30
0.0
 11
-272.1068405183
 21
91.3947607392
 31
0.0
  0
LINE
  5
91
330
1F
100
AcDbEntity
  8
0
  6
Continuous
 62
     7
370
    25
100
AcDbLine
 10
-92.1068405183
 20
91.3947607392
 30
0.0
 11
-92.1068405183
 21
181.3947607392
 31
0.0
  0
CIRCLE
  5
92
330
1F
100
AcDbEntity
  8
0
  6
Continuous
 62
     7
370
    25
100
AcDbCircle
 10
-182.1068405183
 20
181.3947607392
 30
0.0
 40
90.00000000000003
  0
CIRCLE
  5
93
330
1F
100
AcDbEntity
  8
0
  6
Continuous
 62
     7
370
    25
100
AcDbCircle
 10
-182.1068405183
 20
181.3947607392
 30
0.0
 40
73.59999999999997
  0
LINE
  5
94
330
1F
100
AcDbEntity
  8
0
  6
Continuous
 62
     7
370
    25
100
AcDbLine
 10
-272.1068405183
 20
-48.6052392608
 30
0.0
 11
-92.1068405183
 21
-48.6052392608
 31
0.0
  0
LINE
  5
95
330
1F
100
AcDbEntity
  8
0
  6
Continuous
 62
     1
370
    25
100
AcDbLine
 10
-182.1068405183
 20
91.3947607392
 30
0.0
 11
-92.1068405183
 21
91.3947607392
 31
0.0
  0
LINE
  5
96
330
1F
100
AcDbEntity
  8
0
  6
Continuous
 62
     1
370
    25
100
AcDbLine
 10
-272.1068405183
 20
91.3947607392
 30
0.0
 11
-182.1068405183
 21
91.3947607392
 31
0.0
  0
INSERT
  5
A2
330
1F
100
AcDbEntity
  8
FORMAT
 62
     7
100
AcDbBlockReference
  2
SW_CENTERMARKSYMBOL_0
 10
-182.1068405183
 20
181.3947607392
 30
0.0
  0
LINE
  5
A3
330
1F
100
AcDbEntity
  8
0
  6
Continuous
 62
     7
370
    25
100
AcDbLine
 10
330.6662681135
 20
551.9830605628
 30
0.0
 11
190.6662681135
 21
551.9830605628
 31
0.0
  0
LINE
  5
A4
330
1F
100
AcDbEntity
  8
0
  6
Continuous
 62
     7
370
    25
100
AcDbLine
 10
190.6662681135
 20
371.9830605628
 30
0.0
 11
330.6662681135
 21
371.9830605628
 31
0.0
  0
LINE
  5
A5
330
1F
100
AcDbEntity
  8
0
  6
Continuous
 62
     7
370
    25
100
AcDbLine
 10
190.6662681135
 20
551.9830605628
 30
0.0
 11
100.6662681135
 21
551.9830605628
 31
0.0
  0
LINE
  5
A6
330
1F
100
AcDbEntity
  8
0
  6
Continuous
 62
     7
370
    25
100
AcDbLine
 10
100.6662681135
 20
371.9830605628
 30
0.0
 11
190.6662681135
 21
371.9830605628
 31
0.0
  0
CIRCLE
  5
A7
330
1F
100
AcDbEntity
  8
0
  6
Continuous
 62
     7
370
    25
100
AcDbCircle
 10
100.6662681135
 20
461.9830605628
 30
0.0
 40
73.60000000000002
  0
CIRCLE
  5
A8
330
1F
100
AcDbEntity
  8
0
  6
Continuous
 62
     7
370
    25
100
AcDbCircle
 10
100.6662681135
 20
461.9830605628
 30
0.0
 40
90.00000000000011
  0
LINE
  5
A9
330
1F
100
AcDbEntity
  8
0
  6
Continuous
 62
     7
370
    25
100
AcDbLine
 10
330.6662681135
 20
551.9830605628
 30
0.0
 11
330.6662681135
 21
371.9830605628
 31
0.0
  0
LINE
  5
AA
330
1F
100
AcDbEntity
  8
0
  6
Continuous
 62
     1
370
    25
100
AcDbLine
 10
190.6662681135
 20
461.9830605628
 30
0.0
 11
190.6662681135
 21
371.9830605628
 31
0.0
  0
LINE
  5
AB
330
1F
100
AcDbEntity
  8
0
  6
Continuous
 62
     1
370
    25
100
AcDbLine
 10
190.6662681135
 20
551.9830605628
 30
0.0
 11
190.6662681135
 21
461.9830605628
 31
0.0
  0
INSERT
  5
B7
330
1F
100
AcDbEntity
  8
FORMAT
 62
     7
100
AcDbBlockReference
  2
SW_CENTERMARKSYMBOL_1
 10
100.6662681135
 20
461.9830605628
 30
0.0
  0
LINE
  5
B8
330
1F
100
AcDbEntity
  8
0
  6
Continuous
 62
     7
370
    25
100
AcDbLine
 10
460.4400084612
 20
91.3947607392
 30
0.0
 11
460.4400084612
 21
-48.6052392608
 31
0.0
  0
LINE
  5
B9
330
1F
100
AcDbEntity
  8
0
  6
Continuous
 62
     7
370
    25
100
AcDbLine
 10
640.4400084612
 20
-48.6052392608
 30
0.0
 11
640.4400084612
 21
91.3947607392
 31
0.0
  0
LINE
  5
BA
330
1F
100
AcDbEntity
  8
0
  6
Continuous
 62
     7
370
    25
100
AcDbLine
 10
640.4400084612
 20
91.3947607392
 30
0.0
 11
640.4400084612
 21
181.3947607392
 31
0.0
  0
LINE
  5
BB
330
1F
100
AcDbEntity
  8
0
  6
Continuous
 62
     7
370
    25
100
AcDbLine
 10
460.4400084612
 20
181.3947607392
 30
0.0
 11
460.4400084612
 21
91.3947607392
 31
0.0
  0
LINE
  5
BC
330
1F
100
AcDbEntity
  8
0
  6
Continuous
 62
     7
370
    25
100
AcDbLine
 10
460.4400084612
 20
-48.6052392608
 30
0.0
 11
640.4400084612
 21
-48.6052392608
 31
0.0
  0
ARC
  5
BD
330
1F
100
AcDbEntity
  8
0
  6
Continuous
 62
     7
370
    25
100
AcDbCircle
 10
550.4400084612
 20
181.3947607392
 30
0.0
 40
90.0
100
AcDbArc
 50
0.0
 51
180.0
  0
LINE
  5
BE
330
1F
100
AcDbEntity
  8
0
  6
Continuous
 62
     1
370
    25
100
AcDbLine
 10
460.4400084612
 20
91.3947607392
 30
0.0
 11
640.4400084612
 21
91.3947607392
 31
0.0
  0
INSERT
  5
CA
330
1F
100
AcDbEntity
  8
FORMAT
 62
     7
100
AcDbBlockReference
  2
SW_CENTERMARKSYMBOL_2
 10
550.4400084612
 20
181.3947607392
 30
0.0
  0
LINE
  5
CB
330
1F
100
AcDbEntity
  8
0
  6
Continuous
 62
     7
370
    25
100
AcDbLine
 10
330.6662681135
 20
-182.8038168633
 30
0.0
 11
190.6662681135
 21
-182.8038168633
 31
0.0
  0
LINE
  5
CC
330
1F
100
AcDbEntity
  8
0
  6
Continuous
 62
     7
370
    25
100
AcDbLine
 10
190.6662681135
 20
-362.8038168633
 30
0.0
 11
330.6662681135
 21
-362.8038168633
 31
0.0
  0
LINE
  5
CD
330
1F
100
AcDbEntity
  8
0
  6
Continuous
 62
     7
370
    25
100
AcDbLine
 10
100.6662681135
 20
-362.8038168633
 30
0.0
 11
190.6662681135
 21
-362.8038168633
 31
0.0
  0
LINE
  5
CE
330
1F
100
AcDbEntity
  8
0
  6
Continuous
 62
     7
370
    25
100
AcDbLine
 10
190.6662681135
 20
-182.8038168633
 30
0.0
 11
100.6662681135
 21
-182.8038168633
 31
0.0
  0
LINE
  5
CF
330
1F
100
AcDbEntity
  8
0
  6
Continuous
 62
     7
370
    25
100
AcDbLine
 10
330.6662681135
 20
-182.8038168633
 30
0.0
 11
330.6662681135
 21
-362.8038168633
 31
0.0
  0
ARC
  5
D0
330
1F
100
AcDbEntity
  8
0
  6
Continuous
 62
     7
370
    25
100
AcDbCircle
 10
100.6662681135
 20
-272.8038168633
 30
0.0
 40
90.00000000000003
100
AcDbArc
 50
90.0
 51
270.0
  0
LINE
  5
D1
330
1F
100
AcDbEntity
  8
0
  6
Continuous
 62
     1
370
    25
100
AcDbLine
 10
190.6662681135
 20
-182.8038168633
 30
0.0
 11
190.6662681135
 21
-362.8038168633
 31
0.0
  0
INSERT
  5
DD
330
1F
100
AcDbEntity
  8
FORMAT
 62
     7
100
AcDbBlockReference
  2
SW_CENTERMARKSYMBOL_3
 10
100.6662681135
 20
-272.8038168633
 30
0.0
  0
LINE
  5
DE
330
1F
100
AcDbEntity
  8
0
  6
Continuous
 62
     7
370
    25
100
AcDbLine
 10
638.6220625148
 20
-118.4983410329
 30
0.0
 11
539.6271131486
 21
-175.6469088605
 31
0.0
  0
LINE
  5
DF
330
1F
100
AcDbEntity
  8
0
  6
Continuous
 62
     7
370
    25
100
AcDbLine
 10
629.6197990859
 20
-331.535704089
 30
0.0
 11
728.614748452
 21
-274.3871362614
 31
0.0
  0
LINE
  5
E0
330
1F
100
AcDbEntity
  8
0
  6
Continuous
 62
     7
370
    25
100
AcDbLine
 10
430.9838458105
 20
-363.8183445765
 30
0.0
 11
430.9838458105
 21
-478.1340582405
 31
0.0
  0
LINE
  5
E1
330
1F
100
AcDbEntity
  8
0
  6
Continuous
 62
     7
370
    25
100
AcDbLine
 10
610.9838458105
 20
-478.1340582405
 30
0.0
 11
610.9838458105
 21
-363.8183445765
 31
0.0
  0
SPLINE
  5
E2
330
1F
100
AcDbEntity
  8
0
  6
Continuous
 62
     7
370
    25
100
AcDbSpline
210
0.0
220
0.0
230
1.0
 70
     8
 71
     3
 72
    39
 73
    35
 74
     0
 42
0.00000001
 43
0.00000001
 40
0.0
 40
0.0
 40
0.0
 40
0.0
 40
0.0208769197586264
 40
0.052968810244414
 40
0.0851396775568198
 40
0.1174653226705793
 40
0.1498878608636707
 40
0.1823476331787867
 40
0.2147955040971578
 40
0.2472005778032919
 40
0.2795423355353345
 40
0.3118100037574476
 40
0.3440013243315762
 40
0.3761211020678019
 40
0.4081797600440128
 40
0.4401920318678255
 40
0.4721758405762763
 40
0.504151360922519
 40
0.5361402307034797
 40
0.5681601702040345
 40
0.6002310352551429
 40
0.632375118780543
 40
0.6646136509814415
 40
0.6969659426679216
 40
0.7294483371272021
 40
0.762072920344694
 40
0.7948459678647296
 40
0.8277661604770699
 40
0.8608226900822346
 40
0.8939935031308385
 40
0.9272440733924722
 40
0.9605115974128459
 40
0.9912736068087538
 40
1.0
 40
1.0
 40
1.0
 40
1.0
 10
539.6271131486385
 20
-175.6469088604527
 30
0.0
 10
538.3112670238933
 20
-176.4202449260798
 30
0.0
 10
534.9727092051005
 20
-178.3823490960895
 30
0.0
 10
529.7139532409793
 20
-181.7601206313862
 30
0.0
 10
523.867138400709
 20
-185.8205457873692
 30
0.0
 10
518.1321780258794
 20
-190.1350637266928
 30
0.0
 10
512.5140357560384
 20
-194.6903764196658
 30
0.0
 10
507.0275639225325
 20
-199.4727556017077
 30
0.0
 10
501.6847721725436
 20
-204.466551341154
 30
0.0
 10
496.495384189636
 20
-209.6574069797128
 30
0.0
 10
491.4668690831198
 20
-215.0320575971042
 30
0.0
 10
486.6052317522153
 20
-220.5783060420346
 30
0.0
 10
481.9153182172517
 20
-226.285057991655
 30
0.0
 10
477.4011553126643
 20
-232.142308624736
 30
0.0
 10
473.0662556364139
 20
-238.1410539319319
 30
0.0
 10
468.9138793081949
 20
-244.273175891317
 30
0.0
 10
464.9472472725234
 20
-250.5313171848249
 30
0.0
 10
461.1697117678832
 20
-256.9087575655641
 30
0.0
 10
457.5850675023145
 20
-263.3989776519855
 30
0.0
 10
454.1975378321005
 20
-269.9956528717049
 30
0.0
 10
451.0117335251525
 20
-276.692733158281
 30
0.0
 10
448.0325962779754
 20
-283.4846710882628
 30
0.0
 10
445.2655764546576
 20
-290.3661622612941
 30
0.0
 10
442.7167995391114
 20
-297.3317671313096
 30
0.0
 10
440.3931199582295
 20
-304.3756755892844
 30
0.0
 10
438.302153063598
 20
-311.4914130008331
 30
0.0
 10
436.452257782566
 20
-318.6714845049594
 30
0.0
 10
434.8524903461423
 20
-325.9069610845468
 30
0.0
 10
433.512342885864
 20
-333.1870521649244
 30
0.0
 10
432.4418433420173
 20
-340.498656729648
 30
0.0
 10
431.6498730546426
 20
-347.825066760294
 30
0.0
 10
431.1609624176054
 20
-354.9656302826705
 30
0.0
 10
430.995898263229
 20
-360.294952966755
 30
0.0
 10
430.9860271832225
 20
-363.1806461260799
 30
0.0
 10
430.9838458104722
 20
-363.8183445764535
 30
0.0
  0
SPLINE
  5
E3
330
1F
100
AcDbEntity
  8
0
  6
Continuous
 62
     7
370
    25
100
AcDbSpline
210
0.0
220
0.0
230
1.0
 70
     8
 71
     3
 72
    33
 73
    29
 74
     0
 42
0.00000001
 43
0.00000001
 40
0.0
 40
0.0
 40
0.0
 40
0.0
 40
0.0326939676418668
 40
0.0730104336313983
 40
0.1121780818253101
 40
0.1505373481400084
 40
0.1883902186535023
 40
0.2259943222199305
 40
0.2635584116999648
 40
0.3012396243712098
 40
0.3391082230731818
 40
0.3772317886420269
 40
0.4156353119295952
 40
0.4543042710848931
 40
0.4931933555349197
 40
0.5322367571583738
 40
0.5713508538859876
 40
0.6104468978351877
 40
0.6494732948862975
 40
0.6884098248455117
 40
0.7272782916977827
 40
0.7661513391744321
 40
0.8051586829904093
 40
0.844437543513078
 40
0.8842073038134017
 40
0.9247494681653314
 40
0.966394775724173
 40
1.0
 40
1.0
 40
1.0
 40
1.0
 10
610.984056964064
 20
-363.8820675512475
 30
0.0
 10
610.9840983035475
 20
-363.875706822515
 30
0.0
 10
610.984190620688
 20
-363.8615023806419
 30
0.0
 10
611.0113479350648
 20
-363.5092296368459
 30
0.0
 10
611.0885187527455
 20
-362.8940000149756
 30
0.0
 10
611.2337976489747
 20
-362.0203722058474
 30
0.0
 10
611.4631650491237
 20
-360.9148213779928
 30
0.0
 10
611.7907695396955
 20
-359.5929124638367
 30
0.0
 10
612.2280177547834
 20
-358.0760250525463
 30
0.0
 10
612.783168744254
 20
-356.3882226094919
 30
0.0
 10
613.4608635369408
 20
-354.557177622471
 30
0.0
 10
614.2617300889373
 20
-352.6136388869327
 30
0.0
 10
615.1823791063894
 20
-350.5904573652468
 30
0.0
 10
616.2148842451045
 20
-348.5227455997291
 30
0.0
 10
617.3466357764387
 20
-346.4471210269901
 30
0.0
 10
618.560348673581
 20
-344.4007926561497
 30
0.0
 10
619.8342867872541
 20
-342.4204543268685
 30
0.0
 10
621.1430692027652
 20
-340.5405533780101
 30
0.0
 10
622.4586679750456
 20
-338.7918362982392
 30
0.0
 10
623.7514874457794
 20
-337.2002264964903
 30
0.0
 10
624.9911169109719
 20
-335.7864078628298
 30
0.0
 10
626.147097365278
 20
-334.5654915281221
 30
0.0
 10
627.1893777550092
 20
-333.5472596701978
 30
0.0
 10
628.0882270071435
 20
-332.736391358912
 30
0.0
 10
628.8186143173936
 20
-332.130188033748
 30
0.0
 10
629.3458636275639
 20
-331.7282721849675
 30
0.0
 10
629.6558717232944
 20
-331.5153457536936
 30
0.0
 10
629.6685994201159
 20
-331.5079128410478
 30
0.0
 10
629.6742833281996
 20
-331.5045934665477
 30
0.0
  0
LWPOLYLINE
  5
E4
330
1F
100
AcDbEntity
  8
0
  6
Continuous
 62
     7
370
    25
100
AcDbPolyline
 90
      104
 70
   128
 43
0.0
 10
619.9787951766
 20
-159.7043736151
 10
620.0971669417
 20
-164.2528696337
 10
620.4518418863
 20
-168.9211140793
 10
621.0415005962
 20
-173.6917407759
 10
621.8639495024
 20
-178.5470026789
 10
622.9161290409
 20
-183.468837895
 10
624.1941250346
 20
-188.4389368741
 10
625.6931832547
 20
-193.4388105215
 10
627.407727106
 20
-198.4498589788
 10
629.3313783728
 20
-203.4534408167
 10
631.456980946
 20
-208.430942382
 10
633.7766274444
 20
-213.363847042
 10
636.2816886308
 20
-218.2338040674
 10
638.962845513
 20
-223.0226968983
 10
641.8101240112
 20
-227.7127105386
 10
644.8129320625
 20
-232.2863978297
 10
647.9600990237
 20
-236.7267443544
 10
651.239917227
 20
-241.017231732
 10
654.6401855331
 20
-245.1418990677
 10
658.1482547208
 20
-249.085402328
 10
661.7510745423
 20
-252.8330714219
 10
665.435242271
 20
-256.3709647741
 10
669.1870525612
 20
-259.685921189
 10
672.9925484322
 20
-262.7656088111
 10
676.8375731892
 20
-265.598571
 10
680.7078230878
 20
-268.1742689504
 10
684.588900544
 20
-270.4831208968
 10
688.4663676949
 20
-272.5165377582
 10
692.3258001079
 20
-274.2669550903
 10
696.152840441
 20
-275.7278612258
 10
699.9332518529
 20
-276.8938214978
 10
703.6529709646
 20
-277.7604984576
 10
707.2981601769
 20
-278.3246680099
 10
710.8552591464
 20
-278.5842314069
 10
714.3110352314
 20
-278.5382230558
 10
717.6526327179
 20
-278.1868141107
 10
720.8676206436
 20
-277.5313118359
 10
723.9440390424
 20
-276.5741547428
 10
726.8704434358
 20
-275.3189035189
 10
729.6359474072
 20
-273.7702277811
 10
732.2302631002
 20
-271.9338887047
 10
734.64373949
 20
-269.8167175919
 10
736.867398286
 20
-267.4265904582
 10
738.8929673313
 20
-264.7723987335
 10
740.7129113761
 20
-261.8640161854
 10
742.320460109
 20
-258.712262188
 10
743.7096333432
 20
-255.3288614731
 10
744.8752632629
 20
-251.7264005137
 10
745.8130136483
 20
-247.9182807011
 10
746.5193960063
 20
-243.9186684911
 10
746.9917825483
 20
-239.7424427038
 10
747.2284159652
 20
-235.4051391736
 10
747.2284159652
 20
-230.9228929543
 10
746.9917825483
 20
-226.3123782963
 10
746.5193960063
 20
-221.590746617
 10
745.8130136483
 20
-216.7755626963
 10
744.8752632629
 20
-211.8847393347
 10
743.7096333432
 20
-206.9364707163
 10
742.320460109
 20
-201.9491647254
 10
740.7129113761
 20
-196.9413744678
 10
738.8929673313
 20
-191.9317292521
 10
736.867398286
 20
-186.9388652878
 10
734.64373949
 20
-181.9813563565
 10
732.2302631002
 20
-177.0776447172
 10
729.6359474072
 20
-172.2459724992
 10
726.8704434358
 20
-167.5043138405
 10
723.9440390424
 20
-162.8703080228
 10
720.8676206436
 20
-158.3611938521
 10
717.6526327179
 20
-153.9937455292
 10
714.3110352314
 20
-149.7842102487
 10
710.8552591464
 20
-145.7482477585
 10
707.2981601769
 20
-141.9008721039
 10
703.6529709646
 20
-138.2563957753
 10
699.9332518529
 20
-134.8283764638
 10
696.152840441
 20
-131.6295666265
 10
692.3258001079
 20
-128.671866046
 10
688.4663676949
 20
-125.9662775628
 10
684.588900544
 20
-123.5228661438
 10
680.7078230878
 20
-121.3507214398
 10
676.8375731892
 20
-119.457923972
 10
672.9925484322
 20
-117.8515150711
 10
669.1870525612
 20
-116.5374706838
 10
665.435242271
 20
-115.5206791415
 10
661.7510745423
 20
-114.8049229755
 10
658.1482547208
 20
-114.3928648459
 10
654.6401855331
 20
-114.2860376358
 10
651.239917227
 20
-114.4848387496
 10
647.9600990237
 20
-114.988528634
 10
644.8129320625
 20
-115.7952335295
 10
641.8101240112
 20
-116.9019524411
 10
638.962845513
 20
-118.3045683016
 10
636.2816886308
 20
-119.9978632879
 10
633.7766274444
 20
-121.9755382315
 10
631.456980946
 20
-124.2302360516
 10
629.3313783728
 20
-126.7535691243
 10
627.407727106
 20
-129.5361504849
 10
625.6931832547
 20
-132.5676287478
 10
624.1941250346
 20
-135.836726615
 10
622.9161290409
 20
-139.3312828274
 10
621.8639495024
 20
-143.0382974067
 10
621.0415005962
 20
-146.9439800149
 10
620.4518418863
 20
-151.0338012564
 10
620.0971669417
 20
-155.2925467274
 10
619.9787951766
 20
-159.7043736151
  0
LWPOLYLINE
  5
E5
330
1F
100
AcDbEntity
  8
0
  6
Continuous
 62
     7
370
    25
100
AcDbPolyline
 90
       94
 70
   128
 43
0.0
 10
631.575346388
 20
-166.398920132
 10
631.6940766591
 20
-162.4103011442
 10
632.0497257332
 20
-158.5769643631
 10
632.6406708651
 20
-154.916400425
 10
633.4642157079
 20
-151.4453116438
 10
634.5166026153
 20
-148.1795358014
 10
635.7930297871
 20
-145.133973884
 10
637.287673179
 20
-142.3225220919
 10
638.993713076
 20
-139.758008435
 10
640.9033652093
 20
-137.4521342009
 10
643.0079162743
 20
-135.4154205647
 10
645.2977636871
 20
-133.6571605837
 10
647.7624593992
 20
-132.1853767949
 10
650.3907575693
 20
-131.0067846101
 10
653.1706658758
 20
-130.1267616752
 10
656.0895002346
 20
-129.549323333
 10
659.1339426741
 20
-129.2771043022
 10
662.2901021015
 20
-129.3113466558
 10
665.5435776855
 20
-129.6518941538
 10
668.879524563
 20
-130.297192956
 10
672.2827215736
 20
-131.2442987121
 10
675.73764071
 20
-132.4888899957
 10
679.2285179685
 20
-134.0252880222
 10
682.7394252769
 20
-135.8464825598
 10
686.2543431704
 20
-137.9441639156
 10
689.7572338848
 20
-140.3087608507
 10
693.2321145331
 20
-142.9294842515
 10
696.6631300321
 20
-145.7943763584
 10
700.0346254449
 20
-148.8903653256
 10
703.3312174113
 20
-152.2033248657
 10
706.5378643381
 20
-155.7181387042
 10
709.639935031
 20
-159.4187695515
 10
712.6232754529
 20
-163.2883322781
 10
715.4742733057
 20
-167.3091709565
 10
718.1799201401
 20
-171.4629394223
 10
720.7278707101
 20
-175.7306849826
 10
723.1064993017
 20
-180.0929348932
 10
725.3049527783
 20
-184.5297852084
 10
727.3132001007
 20
-189.0209915977
 10
729.1220780972
 20
-193.5460617166
 10
730.7233332722
 20
-198.084348708
 10
732.1096594658
 20
-202.6151454091
 10
733.2747311894
 20
-207.1177788339
 10
734.213232488
 20
-211.5717044987
 10
734.9208811953
 20
-215.9566001624
 10
735.3944484728
 20
-220.2524585517
 10
735.6317735414
 20
-224.43967865
 10
735.6317735414
 20
-228.4991551325
 10
735.3944484728
 20
-232.412365539
 10
734.9208811953
 20
-236.161454788
 10
734.213232488
 20
-239.7293166452
 10
733.2747311894
 20
-243.0996717751
 10
732.1096594658
 20
-246.2571420205
 10
730.7233332722
 20
-249.1873205687
 10
729.1220780972
 20
-251.8768376871
 10
727.3132001007
 20
-254.3134217259
 10
725.3049527783
 20
-256.4859551111
 10
723.1064993017
 20
-258.3845250711
 10
720.7278707101
 20
-260.0004688666
 10
718.1799201401
 20
-261.3264133167
 10
715.4742733057
 20
-262.356308441
 10
712.6232754529
 20
-263.0854550643
 10
709.639935031
 20
-263.5105262578
 10
706.5378643381
 20
-263.6295825191
 10
703.3312174113
 20
-263.4420806218
 10
700.0346254449
 20
-262.948876094
 10
696.6631300321
 20
-262.1522193149
 10
693.2321145331
 20
-261.0557452467
 10
689.7572338848
 20
-259.664456849
 10
686.2543431704
 20
-257.9847022517
 10
682.7394252769
 20
-256.0241457897
 10
679.2285179685
 20
-253.7917330326
 10
675.73764071
 20
-251.2976499676
 10
672.2827215736
 20
-248.5532765238
 10
668.879524563
 20
-245.5711346478
 10
665.5435776855
 20
-242.3648311689
 10
662.2901021015
 20
-238.9489957145
 10
659.1339426741
 20
-235.3392139584
 10
656.0895002346
 20
-231.5519565067
 10
653.1706658758
 20
-227.6045037466
 10
650.3907575693
 20
-223.5148669996
 10
647.7624593992
 20
-219.3017063402
 10
645.2977636871
 20
-214.9842454541
 10
643.0079162743
 20
-210.5821839252
 10
640.9033652093
 20
-206.1156073505
 10
638.993713076
 20
-201.6048956945
 10
637.287673179
 20
-197.0706302998
 10
635.7930297871
 20
-192.5334999796
 10
634.5166026153
 20
-188.0142066188
 10
633.4642157079
 20
-183.5333707164
 10
632.6406708651
 20
-179.1114372991
 10
632.0497257332
 20
-174.7685826346
 10
631.6940766591
 20
-170.5246221729
 10
631.575346388
 20
-166.398920132
  0
LWPOLYLINE
  5
E6
330
1F
100
AcDbEntity
  8
0
  6
Continuous
 62
     7
370
    25
100
AcDbPolyline
 90
      104
 70
   128
 43
0.0
 10
457.3442355037
 20
-441.3956932084
 10
461.3423307293
 20
-439.2243110938
 10
465.5622963083
 20
-437.1976757942
 10
469.9884336915
 20
-435.323326526
 10
474.6042773572
 20
-433.6082359916
 10
479.3926560638
 20
-432.0587844405
 10
484.335756728
 20
-430.6807359341
 10
489.4151906905
 20
-429.4792169034
 10
494.6120621236
 20
-428.4586970781
 10
499.9070383241
 20
-427.6229728591
 10
505.2804216328
 20
-426.9751531953
 10
510.7122227108
 20
-426.5176480183
 10
516.1822349014
 20
-426.2521592776
 10
521.6701093999
 20
-426.1796746086
 10
527.1554309528
 20
-426.3004636591
 10
532.6177938037
 20
-426.6140770859
 10
538.0368776039
 20
-427.1193482264
 10
543.3925230057
 20
-427.8143974389
 10
548.6648066566
 20
-428.6966390945
 10
553.8341153151
 20
-429.7627911964
 10
558.8812188133
 20
-431.0088875888
 10
563.7873415949
 20
-432.4302927111
 10
568.5342325609
 20
-434.0217188431
 10
573.104232965
 20
-435.7772457749
 10
577.4803421056
 20
-437.6903428311
 10
581.6462805693
 20
-439.753893165
 10
585.5865507914
 20
-441.9602202338
 10
589.2864947078
 20
-444.3011163559
 10
592.7323482842
 20
-446.7678732439
 10
595.9112927189
 20
-449.3513144002
 10
598.8115021299
 20
-452.0418292542
 10
601.4221875477
 20
-454.8294089136
 10
603.7336370509
 20
-457.7036833993
 10
605.7372518958
 20
-460.6539602212
 10
607.4255785033
 20
-463.6692641558
 10
608.7923361878
 20
-466.7383780745
 10
609.8324405207
 20
-469.8498846718
 10
610.5420222458
 20
-472.992208939
 10
610.9184416723
 20
-476.1536612233
 10
610.9602984952
 20
-479.3224807145
 10
610.6674370046
 20
-482.4868791961
 10
610.0409466642
 20
-485.6350848978
 10
609.0831580594
 20
-488.7553862877
 10
607.7976342266
 20
-491.8361756397
 10
606.189157399
 20
-494.865992215
 10
604.2637112159
 20
-497.8335648969
 10
602.0284584637
 20
-500.7278541202
 10
599.4917144294
 20
-503.5380929389
 10
596.6629159675
 20
-506.2538270799
 10
593.5525863939
 20
-508.8649538339
 10
590.172296339
 20
-511.361759638
 10
586.5346207039
 20
-513.7349562104
 10
582.6530918807
 20
-515.9757151041
 10
578.5421494118
 20
-518.0757005488
 10
574.217086273
 20
-520.0271004608
 10
569.6939919833
 20
-521.8226555041
 10
564.9896927505
 20
-523.4556860962
 10
560.1216888768
 20
-524.9201172559
 10
555.1080896563
 20
-526.2105012032
 10
549.9675460075
 20
-527.3220376249
 10
544.7191810902
 20
-528.2505915327
 10
539.3825191668
 20
-528.9927086449
 10
533.97741297
 20
-529.5456282373
 10
528.52396985
 20
-529.9072934125
 10
523.0424769734
 20
-530.0763587524
 10
517.5533258535
 20
-530.0521953229
 10
512.0769364933
 20
-529.8348930133
 10
506.6336814207
 20
-529.4252602028
 10
501.2438099022
 20
-528.8248207521
 10
495.9273726138
 20
-528.0358083354
 10
490.7041470513
 20
-527.0611581309
 10
485.5935639571
 20
-525.9044959012
 10
480.6146350358
 20
-524.5701245059
 10
475.78588223
 20
-523.0630078941
 10
471.1252688173
 20
-521.3887526387
 10
466.6501325858
 20
-519.5535870791
 10
462.3771213362
 20
-517.5643381518
 10
458.3221309508
 20
-515.4284059934
 10
454.5002462604
 20
-513.1537364119
 10
450.925684927
 20
-510.7487913275
 10
447.6117445535
 20
-508.2225172939
 10
444.5707532158
 20
-505.5843122164
 10
441.8140236013
 20
-502.8439903911
 10
439.3518109254
 20
-500.0117459953
 10
437.1932747808
 20
-497.0981151642
 10
435.3464450639
 20
-494.1139367957
 10
433.8181921024
 20
-491.0703122294
 10
432.6142010977
 20
-487.9785639486
 10
431.7389509756
 20
-484.85019346
 10
431.1956977238
 20
-481.6968385072
 10
430.9864622803
 20
-478.5302297779
 10
431.1120230145
 20
-475.3621472644
 10
431.5719128323
 20
-472.2043764418
 10
432.3644209134
 20
-469.068664425
 10
433.4865990756
 20
-465.9666762686
 10
434.9342727425
 20
-462.9099515723
 10
436.702056473
 20
-459.9098615527
 10
438.7833739955
 20
-456.9775667417
 10
441.1704826721
 20
-454.1239754687
 10
443.8545023017
 20
-451.3597032806
 10
446.8254481551
 20
-448.6950334515
 10
450.0722681184
 20
-446.1398787281
 10
453.5828838083
 20
-443.7037444539
 10
457.3442355037
 20
-441.3956932084
  0
LWPOLYLINE
  5
E7
330
1F
100
AcDbEntity
  8
0
  6
Continuous
 62
     7
370
    25
100
AcDbPolyline
 90
       94
 70
   128
 43
0.0
 10
468.9407867151
 20
-448.0902397254
 10
465.5461032409
 20
-450.1870318345
 10
462.4043694708
 20
-452.4113398152
 10
459.5299204154
 20
-454.7530146603
 10
456.9358715266
 20
-457.2013718446
 10
454.6340588543
 20
-459.7452400757
 10
452.634985042
 20
-462.3730122665
 10
450.9477714048
 20
-465.0726984951
 10
449.5801163116
 20
-467.8319807125
 10
448.538260059
 20
-470.6382689468
 10
447.826956398
 20
-473.4787587483
 10
447.4494508441
 20
-476.3404896137
 10
447.4074658687
 20
-479.2104041214
 10
447.7011930394
 20
-482.0754075097
 10
448.3292921465
 20
-484.9224274253
 10
449.288897318
 20
-487.7384735692
 10
450.5756300955
 20
-490.5106969689
 10
452.1836194125
 20
-493.2264486048
 10
454.1055283824
 20
-495.873337125
 10
456.3325877756
 20
-498.4392853844
 10
458.8546360308
 20
-500.9125855495
 10
461.6601656203
 20
-503.281952519
 10
464.7363755559
 20
-505.5365754148
 10
468.0692297974
 20
-507.6661669098
 10
471.6435212953
 20
-509.6610101664
 10
475.4429413772
 20
-511.5120031725
 10
479.4501541608
 20
-513.2107002713
 10
483.6468756532
 20
-514.7493506978
 10
488.0139571768
 20
-516.1209339429
 10
492.5314727403
 20
-517.3191917868
 10
497.1788099563
 20
-518.3386568538
 10
501.9347640909
 20
-519.1746775587
 10
506.7776348164
 20
-519.8234393308
 10
511.6853252242
 20
-520.2819820188
 10
516.6354426488
 20
-520.5482133977
 10
521.6054008396
 20
-520.6209187147
 10
526.5725230175
 20
-520.4997662321
 10
531.514145343
 20
-520.185308741
 10
536.407720327
 20
-519.6789810387
 10
541.2309197092
 20
-518.9830933825
 10
545.9617363371
 20
-518.100820948
 10
550.5785845794
 20
-517.0361893421
 10
555.0603988166
 20
-515.7940562346
 10
559.3867295582
 20
-514.3800891939
 10
563.5378367494
 20
-512.8007398274
 10
567.4947798401
 20
-511.0632143439
 10
571.2395042066
 20
-509.1754406738
 10
574.7549235305
 20
-507.1460322953
 10
578.0249977597
 20
-504.9842489334
 10
581.0348062955
 20
-502.6999543097
 10
583.7706160719
 20
-500.3035711367
 10
586.2199442163
 20
-497.8060335611
 10
588.3716150064
 20
-495.2187372742
 10
590.2158108616
 20
-492.5534875153
 10
591.7441171394
 20
-489.8224452079
 10
592.9495605287
 20
-487.0380714716
 10
593.8266408677
 20
-484.2130707652
 10
594.3713562402
 20
-481.3603329189
 10
594.5812212348
 20
-478.4928743212
 10
594.4552782856
 20
-475.623778528
 10
593.9941020414
 20
-472.7661365654
 10
593.1997967437
 20
-469.9329871983
 10
592.0759866253
 20
-467.1372574373
 10
590.6277993742
 20
-464.3917035561
 10
588.8618427364
 20
-461.7088528874
 10
586.7861743672
 20
-459.1009466634
 10
584.4102650652
 20
-456.5798841622
 10
581.7449555596
 20
-454.1571684136
 10
578.8024070465
 20
-451.8438537139
 10
575.5960456997
 20
-449.6504951875
 10
572.1405014106
 20
-447.5871006264
 10
568.4515410354
 20
-445.6630848266
 10
564.545996454
 20
-443.887226631
 10
560.4416877707
 20
-442.2676288731
 10
556.1573420045
 20
-440.8116814061
 10
551.7125076427
 20
-439.5260273843
 10
547.1274654448
 20
-438.4165329522
 10
542.4231359068
 20
-437.4882604783
 10
537.6209838054
 20
-436.7454454572
 10
532.7429202593
 20
-436.1914771832
 10
527.8112027535
 20
-435.8288832867
 10
522.8483335839
 20
-435.6593182003
 10
517.8769571843
 20
-435.6835556108
 10
512.9197568048
 20
-435.9014849282
 10
507.9993510139
 20
-436.3121117913
 10
503.1381904946
 20
-436.9135626037
 10
498.3584556075
 20
-437.7030930833
 10
493.6819551865
 20
-438.6771007837
 10
489.1300270304
 20
-439.8311415312
 10
484.7234405434
 20
-441.1599497024
 10
480.482301969
 20
-442.6574622505
 10
476.4259626497
 20
-444.3168463692
 10
472.5729307314
 20
-446.1305306693
 10
468.9407867151
 20
-448.0902397254
  0
LWPOLYLINE
  5
E8
330
1F
100
AcDbEntity
  8
0
  6
Continuous
 62
     1
370
    25
100
AcDbPolyline
 90
       14
 70
   128
 43
0.0
 10
584.6234561173
 20
-327.0799795444
 10
588.5031795778
 20
-329.1830048792
 10
592.3684702122
 20
-331.004824131
 10
596.2049488855
 20
-332.5386600126
 10
599.998343645
 20
-333.7788065538
 10
603.7345428131
 20
-334.7206503279
 10
607.3996474835
 20
-335.3606876143
 10
610.980023226
 20
-335.6965374322
 10
614.4623508078
 20
-335.7269503983
 10
617.8336757415
 20
-335.4518133743
 10
621.081456477
 20
-334.8721498881
 10
624.1936110565
 20
-333.9901163257
 10
627.1585620607
 20
-332.8089939102
 10
629.6197990859
 20
-331.535704089
  0
LWPOLYLINE
  5
E9
330
1F
100
AcDbEntity
  8
0
  6
Continuous
 62
     1
370
    25
100
AcDbPolyline
 90
       40
 70
   128
 43
0.0
 10
539.6271131486
 20
-175.6469088605
 10
537.9408982079
 20
-176.6961824129
 10
535.390913241
 20
-178.6034112065
 10
533.0240765673
 20
-180.7895998958
 10
530.8491929745
 20
-183.2466157152
 10
528.8743531725
 20
-185.9653184045
 10
527.1069036951
 20
-188.9355942111
 10
525.5534195703
 20
-192.1463935139
 10
524.2196798613
 20
-195.5857719287
 10
523.1106461673
 20
-199.2409347417
 10
522.2304441665
 20
-203.0982845074
 10
521.5823482681
 20
-207.1434716312
 10
521.1687694314
 20
-211.3614477513
 10
520.991246197
 20
-215.7365217195
 10
521.0504389628
 20
-220.2524179733
 10
521.346127528
 20
-224.892337082
 10
521.8772119115
 20
-229.6390182418
 10
522.6417164447
 20
-234.4748034871
 10
523.6367971205
 20
-239.381703379
 10
524.8587521733
 20
-244.3414639278
 10
526.3030358501
 20
-249.3356344983
 10
527.9642753209
 20
-254.3456364482
 10
529.8362906656
 20
-259.3528322409
 10
531.9121178642
 20
-264.3385947794
 10
534.1840347032
 20
-269.2843766996
 10
536.6435895027
 20
-274.1717793677
 10
539.2816325574
 20
-278.982621325
 10
542.0883501738
 20
-283.6990059233
 10
545.053301178
 20
-288.3033879022
 10
548.1654557575
 20
-292.7786386583
 10
551.413236493
 20
-297.1081099649
 10
554.7845614267
 20
-301.2756959042
 10
558.2668890085
 20
-305.265892783
 10
561.847264751
 20
-309.0638568067
 10
565.5123694214
 20
-312.6554592997
 10
569.2485685895
 20
-316.0273392648
 10
573.041963349
 20
-319.1669530872
 10
576.8784420223
 20
-322.0626211971
 10
580.7437326567
 20
-324.7035715191
 10
584.6234561173
 20
-327.0799795444
  0
LWPOLYLINE
  5
EA
330
1F
100
AcDbEntity
  8
0
  6
Continuous
 62
     1
370
    25
100
AcDbPolyline
 90
       14
 70
   128
 43
0.0
 10
584.6234561173
 20
-327.0799795444
 10
588.3848078127
 20
-329.3880307899
 10
591.8954235025
 20
-331.8241650641
 10
595.1422434659
 20
-334.3793197874
 10
598.1131893192
 20
-337.0439896166
 10
600.7972089488
 20
-339.8082618047
 10
603.1843176254
 20
-342.6618530777
 10
605.2656351479
 20
-345.5941478887
 10
607.0334188784
 20
-348.5942379083
 10
608.4810925453
 20
-351.6509626046
 10
609.6032707076
 20
-354.752950761
 10
610.3957787887
 20
-357.8886627778
 10
610.8556686065
 20
-361.0464336004
 10
610.9838458105
 20
-363.8183445765
  0
LWPOLYLINE
  5
EB
330
1F
100
AcDbEntity
  8
0
  6
Continuous
 62
     1
370
    25
100
AcDbPolyline
 90
       40
 70
   128
 43
0.0
 10
430.9838458105
 20
-363.8183445765
 10
431.0492499487
 20
-361.8379475593
 10
431.4256693752
 20
-358.676495275
 10
432.1352511002
 20
-355.5341710078
 10
433.1753554332
 20
-352.4226644105
 10
434.5421131176
 20
-349.3535504918
 10
436.2304397252
 20
-346.3382465572
 10
438.23405457
 20
-343.3879697352
 10
440.5455040733
 20
-340.5136952496
 10
443.156189491
 20
-337.7261155901
 10
446.056398902
 20
-335.0356007362
 10
449.2353433368
 20
-332.4521595799
 10
452.6811969131
 20
-329.9854026918
 10
456.3811408296
 20
-327.6445065698
 10
460.3214110516
 20
-325.438179501
 10
464.4873495153
 20
-323.3746291671
 10
468.863458656
 20
-321.4615321109
 10
473.4334590601
 20
-319.7060051791
 10
478.180350026
 20
-318.1145790471
 10
483.0864728076
 20
-316.6931739247
 10
488.1335763059
 20
-315.4470775324
 10
493.3028849643
 20
-314.3809254305
 10
498.5751686152
 20
-313.4986837749
 10
503.9308140171
 20
-312.8036345624
 10
509.3498978173
 20
-312.2983634219
 10
514.8122606681
 20
-311.9847499951
 10
520.297582221
 20
-311.8639609446
 10
525.7854567196
 20
-311.9364456136
 10
531.2554689101
 20
-312.2019343543
 10
536.6872699882
 20
-312.6594395313
 10
542.0606532968
 20
-313.3072591951
 10
547.3556294973
 20
-314.1429834141
 10
552.5525009304
 20
-315.1635032394
 10
557.631934893
 20
-316.3650222701
 10
562.5750355571
 20
-317.7430707765
 10
567.3634142637
 20
-319.2925223276
 10
571.9792579294
 20
-321.007612862
 10
576.4053953127
 20
-322.8819621302
 10
580.6253608916
 20
-324.9085974298
 10
584.6234561173
 20
-327.0799795444
  0
ENDSEC
  0
SECTION
  2
OBJECTS
  0
DICTIONARY
  5
C
330
0
100
AcDbDictionary
281
     1
  3
ACAD_GROUP
350
D
  3
ACAD_LAYOUT
350
1A
  3
ACAD_MLINESTYLE
350
17
  3
ACAD_PLOTSETTINGS
350
19
  3
ACAD_PLOTSTYLENAME
350
E
  3
ACAD_SCALELIST
350
47
  3
DWGPROPS
350
EC
  0
DICTIONARY
  5
D
102
{ACAD_REACTORS
330
C
102
}
330
C
100
AcDbDictionary
281
     1
  0
DICTIONARY
  5
1A
102
{ACAD_REACTORS
330
C
102
}
330
C
100
AcDbDictionary
281
     1
  3
Layout1
350
1E
  3
Layout2
350
26
  3
Model
350
22
  0
DICTIONARY
  5
17
102
{ACAD_REACTORS
330
C
102
}
330
C
100
AcDbDictionary
281
     1
  3
Standard
350
18
  0
DICTIONARY
  5
19
102
{ACAD_REACTORS
330
C
102
}
330
C
100
AcDbDictionary
281
     1
  0
ACDBDICTIONARYWDFLT
  5
E
102
{ACAD_REACTORS
330
C
102
}
330
C
100
AcDbDictionary
281
     1
  3
Normal
350
F
100
AcDbDictionaryWithDefault
340
F
  0
DICTIONARY
  5
47
102
{ACAD_REACTORS
330
C
102
}
330
C
100
AcDbDictionary
281
     1
  3
A0
350
48
  3
A1
350
49
  3
A2
350
4A
  3
A3
350
4B
  3
A4
350
4C
  3
A5
350
4D
  3
A6
350
4E
  3
A7
350
4F
  3
A8
350
50
  3
A9
350
51
  3
B0
350
52
  3
B1
350
53
  3
B2
350
54
  3
B3
350
55
  3
B4
350
56
  3
B5
350
57
  3
B6
350
58
  3
B7
350
59
  3
B8
350
5A
  3
B9
350
5B
  3
C0
350
5C
  3
C1
350
5D
  3
C2
350
5E
  3
C3
350
5F
  3
C4
350
60
  3
C5
350
61
  3
C6
350
62
  3
C7
350
63
  3
C8
350
64
  3
C9
350
65
  3
D0
350
66
  3
D1
350
67
  3
D2
350
68
  0
XRECORD
  5
EC
102
{ACAD_REACTORS
330
C
102
}
330
C
100
AcDbXrecord
280
     1
  1
DWGPROPS COOKIE
  2

  3

  4

  6

  7

  8
b.kav
  9

300
=
301
=
302
=
303
=
304
=
305
=
306
=
307
=
308
=
309
=
 40
0.0
 41
2459935.57438956
 42
2459935.574389734
  1

 90
        0
  0
LAYOUT
  5
1E
102
{ACAD_REACTORS
330
1A
102
}
330
1A
100
AcDbPlotSettings
  1

  2
none_device
  4

  6

 40
0.0
 41
0.0
 42
0.0
 43
0.0
 44
0.0
 45
0.0
 46
0.0
 47
0.0
 48
0.0
 49
0.0
140
0.0
141
0.0
142
1.0
143
1.0
 70
   688
 72
     1
 73
     0
 74
     5
  7

 75
    16
147
1.0
148
0.0
149
0.0
100
AcDbLayout
  1
Layout1
 70
     1
 71
     1
 10
0.0
 20
0.0
 11
420.0
 21
297.0
 12
0.0
 22
0.0
 32
0.0
 14
1.0000000000E+20
 24
1.0000000000E+20
 34
1.0000000000E+20
 15
-1.0000000000E+20
 25
-1.0000000000E+20
 35
-1.0000000000E+20
146
0.0
 13
0.0
 23
0.0
 33
0.0
 16
1.0
 26
0.0
 36
0.0
 17
0.0
 27
1.0
 37
0.0
 76
     0
330
1B
  0
LAYOUT
  5
26
102
{ACAD_REACTORS
330
1A
102
}
330
1A
100
AcDbPlotSettings
  1

  2
none_device
  4

  6

 40
0.0
 41
0.0
 42
0.0
 43
0.0
 44
0.0
 45
0.0
 46
0.0
 47
0.0
 48
0.0
 49
0.0
140
0.0
141
0.0
142
1.0
143
1.0
 70
   688
 72
     1
 73
     0
 74
     5
  7

 75
    16
147
1.0
148
0.0
149
0.0
100
AcDbLayout
  1
Layout2
 70
     1
 71
     2
 10
0.0
 20
0.0
 11
0.0
 21
0.0
 12
0.0
 22
0.0
 32
0.0
 14
0.0
 24
0.0
 34
0.0
 15
0.0
 25
0.0
 35
0.0
146
0.0
 13
0.0
 23
0.0
 33
0.0
 16
1.0
 26
0.0
 36
0.0
 17
0.0
 27
1.0
 37
0.0
 76
     0
330
23
  0
LAYOUT
  5
22
102
{ACAD_REACTORS
330
1A
102
}
330
1A
100
AcDbPlotSettings
  1

  2
none_device
  4
Letter_(8.50_x_11.00_Inches)
  6

 40
6.35
 41
6.35
 42
6.35000508
 43
6.35000508
 44
215.9
 45
279.4
 46
0.0
 47
0.0
 48
0.0
 49
0.0
140
0.0
141
0.0
142
1.0
143
1.0
 70
  1712
 72
     1
 73
     0
 74
     0
  7

 75
     0
147
1.0
148
0.0
149
0.0
100
AcDbLayout
  1
Model
 70
     1
 71
     0
 10
0.0
 20
0.0
 11
279.4
 21
215.9
 12
0.0
 22
0.0
 32
0.0
 14
0.0
 24
0.0
 34
0.0
 15
279.4
 25
215.9
 35
0.0
146
0.0
 13
0.0
 23
0.0
 33
0.0
 16
1.0
 26
0.0
 36
0.0
 17
0.0
 27
1.0
 37
0.0
 76
     0
330
1F
331
29
  0
MLINESTYLE
  5
18
102
{ACAD_REACTORS
330
17
102
}
330
17
100
AcDbMlineStyle
  2
Standard
 70
     0
  3

 62
   256
 51
90.0
 52
90.0
 71
     2
 49
0.5
 62
   256
  6
BYLAYER
 49
-0.5
 62
   256
  6
BYLAYER
  0
ACDBPLACEHOLDER
  5
F
102
{ACAD_REACTORS
330
E
102
}
330
E
  0
SCALE
  5
48
102
{ACAD_REACTORS
330
47
102
}
330
47
100
AcDbScale
 70
     0
300
1:1
140
1.0
141
1.0
290
     1
  0
SCALE
  5
49
102
{ACAD_REACTORS
330
47
102
}
330
47
100
AcDbScale
 70
     0
300
1:2
140
1.0
141
2.0
290
     0
  0
SCALE
  5
4A
102
{ACAD_REACTORS
330
47
102
}
330
47
100
AcDbScale
 70
     0
300
1:4
140
1.0
141
4.0
290
     0
  0
SCALE
  5
4B
102
{ACAD_REACTORS
330
47
102
}
330
47
100
AcDbScale
 70
     0
300
1:5
140
1.0
141
5.0
290
     0
  0
SCALE
  5
4C
102
{ACAD_REACTORS
330
47
102
}
330
47
100
AcDbScale
 70
     0
300
1:8
140
1.0
141
8.0
290
     0
  0
SCALE
  5
4D
102
{ACAD_REACTORS
330
47
102
}
330
47
100
AcDbScale
 70
     0
300
1:10
140
1.0
141
10.0
290
     0
  0
SCALE
  5
4E
102
{ACAD_REACTORS
330
47
102
}
330
47
100
AcDbScale
 70
     0
300
1:16
140
1.0
141
16.0
290
     0
  0
SCALE
  5
4F
102
{ACAD_REACTORS
330
47
102
}
330
47
100
AcDbScale
 70
     0
300
1:20
140
1.0
141
20.0
290
     0
  0
SCALE
  5
50
102
{ACAD_REACTORS
330
47
102
}
330
47
100
AcDbScale
 70
     0
300
1:30
140
1.0
141
30.0
290
     0
  0
SCALE
  5
51
102
{ACAD_REACTORS
330
47
102
}
330
47
100
AcDbScale
 70
     0
300
1:40
140
1.0
141
40.0
290
     0
  0
SCALE
  5
52
102
{ACAD_REACTORS
330
47
102
}
330
47
100
AcDbScale
 70
     0
300
1:50
140
1.0
141
50.0
290
     0
  0
SCALE
  5
53
102
{ACAD_REACTORS
330
47
102
}
330
47
100
AcDbScale
 70
     0
300
1:100
140
1.0
141
100.0
290
     0
  0
SCALE
  5
54
102
{ACAD_REACTORS
330
47
102
}
330
47
100
AcDbScale
 70
     0
300
2:1
140
2.0
141
1.0
290
     0
  0
SCALE
  5
55
102
{ACAD_REACTORS
330
47
102
}
330
47
100
AcDbScale
 70
     0
300
4:1
140
4.0
141
1.0
290
     0
  0
SCALE
  5
56
102
{ACAD_REACTORS
330
47
102
}
330
47
100
AcDbScale
 70
     0
300
8:1
140
8.0
141
1.0
290
     0
  0
SCALE
  5
57
102
{ACAD_REACTORS
330
47
102
}
330
47
100
AcDbScale
 70
     0
300
10:1
140
10.0
141
1.0
290
     0
  0
SCALE
  5
58
102
{ACAD_REACTORS
330
47
102
}
330
47
100
AcDbScale
 70
     0
300
100:1
140
100.0
141
1.0
290
     0
  0
SCALE
  5
59
102
{ACAD_REACTORS
330
47
102
}
330
47
100
AcDbScale
 70
     0
300
1/128" = 1'-0"
140
0.0078125
141
12.0
290
     0
  0
SCALE
  5
5A
102
{ACAD_REACTORS
330
47
102
}
330
47
100
AcDbScale
 70
     0
300
1/64" = 1'-0"
140
0.015625
141
12.0
290
     0
  0
SCALE
  5
5B
102
{ACAD_REACTORS
330
47
102
}
330
47
100
AcDbScale
 70
     0
300
1/32" = 1'-0"
140
0.03125
141
12.0
290
     0
  0
SCALE
  5
5C
102
{ACAD_REACTORS
330
47
102
}
330
47
100
AcDbScale
 70
     0
300
1/16" = 1'-0"
140
0.0625
141
12.0
290
     0
  0
SCALE
  5
5D
102
{ACAD_REACTORS
330
47
102
}
330
47
100
AcDbScale
 70
     0
300
3/32" = 1'-0"
140
0.09375
141
12.0
290
     0
  0
SCALE
  5
5E
102
{ACAD_REACTORS
330
47
102
}
330
47
100
AcDbScale
 70
     0
300
1/8" = 1'-0"
140
0.125
141
12.0
290
     0
  0
SCALE
  5
5F
102
{ACAD_REACTORS
330
47
102
}
330
47
100
AcDbScale
 70
     0
300
3/16" = 1'-0"
140
0.1875
141
12.0
290
     0
  0
SCALE
  5
60
102
{ACAD_REACTORS
330
47
102
}
330
47
100
AcDbScale
 70
     0
300
1/4" = 1'-0"
140
0.25
141
12.0
290
     0
  0
SCALE
  5
61
102
{ACAD_REACTORS
330
47
102
}
330
47
100
AcDbScale
 70
     0
300
3/8" = 1'-0"
140
0.375
141
12.0
290
     0
  0
SCALE
  5
62
102
{ACAD_REACTORS
330
47
102
}
330
47
100
AcDbScale
 70
     0
300
1/2" = 1'-0"
140
0.5
141
12.0
290
     0
  0
SCALE
  5
63
102
{ACAD_REACTORS
330
47
102
}
330
47
100
AcDbScale
 70
     0
300
3/4" = 1'-0"
140
0.75
141
12.0
290
     0
  0
SCALE
  5
64
102
{ACAD_REACTORS
330
47
102
}
330
47
100
AcDbScale
 70
     0
300
1" = 1'-0"
140
1.0
141
12.0
290
     0
  0
SCALE
  5
65
102
{ACAD_REACTORS
330
47
102
}
330
47
100
AcDbScale
 70
     0
300
1-1/2" = 1'-0"
140
1.5
141
12.0
290
     0
  0
SCALE
  5
66
102
{ACAD_REACTORS
330
47
102
}
330
47
100
AcDbScale
 70
     0
300
3" = 1'-0"
140
3.0
141
12.0
290
     0
  0
SCALE
  5
67
102
{ACAD_REACTORS
330
47
102
}
330
47
100
AcDbScale
 70
     0
300
6" = 1'-0"
140
6.0
141
12.0
290
     0
  0
SCALE
  5
68
102
{ACAD_REACTORS
330
47
102
}
330
47
100
AcDbScale
 70
     0
300
1'-0" = 1'-0"
140
12.0
141
12.0
290
     0
  0
ENDSEC
  0
EOF
